Chord Lagu Evolusi - Mei Hua



Intro :

e|--------8-7-----------------8-7-----8-7-----------|
B|------------10-6-------6-10-------6-----10-6S10---|
G|---9-9-----------9---9----------9-----------------|
D|--------------------------------------------------|
A|--------------------------------------------------|
E|--------------------------------------------------|

               Am      
Engkau yang menyatakan 
         G
apa pun jua

F                  E
Kita pertahankan bersama

Dm                Am
Kecundang juga akhirnya kita

F    Dm    E
Membina cinta

               Am          G
Hatiku dan hatimu kini diluka

F                   E
Kerana terpaksa mengalah

Dm             Am
Bezanya kita amat ketara

F     G      Am
Kau tetap Mei Hua

Chorus :

*

Am       Am
Mei Hua, Mei Hua

G                     Am
Menangis kau kerana cinta

Am       Am
Mei Hua, Mei Hua

G               E
Pedihnya hatiku terasa

F                C
Menikam di sukma bagaikan sembilu

F                E
Aku diulit mimpi ngeri

**

Am
Mei Hua

G                  Am
Inilah cerita cinta kita

G                E
Biarlah kering kegersangan

F                   C
Usah disirami dengan airmata

F               E
Lupakan diriku, Mei Hua

Am
Mei Hua


Solo :

e|--------8-7-----------------8-7-7-8-10-8-7---------7--12-15-15-10-10-8-10s15s12-17-19----20-19-17-22-20-19-17-17-------------------------------------|
B|------------10-6-------6-10----------------10-6-10------------------------------------18-------------------------20-17-15h17p15-13h15p13-12h13p12-10~|
G|---9-9-----------9---9-------------------------------------------------------------------------------------------------------------------------------|
D|-----------------------------------------------------------------------------------------------------------------------------------------------------|
A|-----------------------------------------------------------------------------------------------------------------------------------------------------|
E|-----------------------------------------------------------------------------------------------------------------------------------------------------|

Ulang chorus *
Ulang chorus **

Legend :

s - slide
h - hammer
p - pull off
~ - trill