Chord Lagu Elyana - Niat 2008


Intro :

e|--------------------------------|--------------------------------|
b|-4-------3-------4-------3------|-4-------3-------4-------3------|
g|-----5-------5-------5-------5--|-----5-------5-------5-------5--|
d|--------------------------------|--------------------------------|
a|--------------------------------|--------------------------------|
E|--------------------------------|--------------------------------|

e|--------------------------------|-----------------------------3--|
b|-4-------3-------4-------3------|-4-------3-------4-------3------|
g|-----5-------5-------5-------5--|-----5-------5-------5----------|
d|--------------------------------|--------------------------------|
a|--------------------------------|--------------------------------|
E|--------------------------------|--------------------------------|

e|--------------------------------|--------------------------------|
b|-4-------3-------4-------3------|-4-------3-------4-------3------|
g|-----5-------5-------5-------5--|-----5-------5-------5-------5--|
d|--------------------------------|--------------------------------|
a|--------------------------------|--------------------------------|
E|--------------------------------|--------------------------------|

Verse :

e|-0---------------|--------------------|-1---------------|
b|-1---------------|-------1------------|-1---------------|
g|-0---------------|---------------0----|-2---------------|
d|-2---------------|--0h2---------------|-3---------------|
a|-3---------------|-----------0--------|-----------------|
E|-----------------|--------------------|-----------------|

e|-----------------|--------------------|-----------------|
b|------1----------|-0------------------|---------1-------|
g|-0h2-------------|-0------------------|-1-------2-------|
d|-----------------|--------2-----------|-0-------2-------|
a|-----------------|--------2-----------|-2-------0-------|
E|----------3------|--------0-----------|-0---------------|

e|-----------------|-1------------------|-3-------------3-|
b|-----------------|-1-----1------------|-0-------0-------|
g|-------------2---|-2-----------2------|-0-------0-------|
d|-------0h2-------|-3------------------|-0-------0-------|
a|-----------------|--------------------|-2---------------|
E|-----------------|--------------------|-3---------------|

Piano :  

e|--------------------------------|--------------------------------|
b|-5-------3-------5-------3------|-5-------3-------6-------6------|
g|-----5-------5-------5-------5--|-----5-------5-------5-------5--|
d|--------------------------------|--------------------------------|
a|--------------------------------|--------------------------------|
E|--------------------------------|--------------------------------|

e|--------------------------------|--------------------------------|
b|-5-------3-------5-------3------|-5-------3-------6-------6------|
g|-----5-------5-------5-------5--|-----5-------5-------5--------5-|
d|--------------------------------|--------------------------------|
a|--------------------------------|--------------------------------|
E|--------------------------------|--------------------------------|

e|-------------3--4---4---4---4---|-4---4--------------------------|
b|-6-------6----------------------|--------------------------------|
g|-----5--------------------------|--------------------------------|
d|--------------------------------|--------------------------------|
a|--------------------------------|--------------------------------|
E|--------------------------------|--------------------------------|

                                    Verse 2

e|-0-0----------0-0---------------|-0--------------|-----------------|
b|-1-1----------1-1---------------|-1--------------|---------1-------|
g|-0-0----------0-0---------------|-0--------------|-----------------|
d|-2-2----------2-2---------------|-2--------------|----0h2----------|
a|-3-3----------3-3---------------|-3--------------|-----------------|
E|--------------------------------|----------------|-----------------|

e|------3---------------|-1-------------|-------------------|
b|---------1------------|-1-------------|-----------1-------|
g|------------0---------|-2-------------|------0h2----------|
d|----------------------|-3-------------|-------------------|
a|-0--------------------|-3-------------|-------------------|
E|----------------------|---------------|-------------------|

e|--------------|------------------|-----------------------|
b|--------------|-0----------0-----|-------3---------------|
g|--------------|------------------|--------------1--------|
d|--------------|---------2-----2--|--------------0--------|
a|--------------|------------------|--------------2--------|
E|-3------------|------------------|-0------------0--------|

e|-0-----------------|-1-------------|----------------------------|
b|-------1-----1-----|-1--------1----|----------------------------|
g|-------2-----------|-2-------------|----------------------------|
d|-------2-----------|-3-------------|--------------------0-------|
a|-------0-----------|-3----3--------|---------------2-3----------|
E|-------------------|---------------|-3----0-1-3-----------------|

e|------------------x-x-5\----x-x-3\-----|
b|------------------x-x-6\----x-x-3\-----|
g|--------------0---x-x-5\----x-x-4\-----|
d|-0-2-3----2-3-----x-x-7\----x-x-5\-----|
a|---------------------------------------|
E|---------------------------------------|

Strumming chords :
C / / / /Em/ / / /Dm/ / / /G/ / / /C/ / / /Em/ / / /F/ / / /G/ / /
F/  E/ / / / A5/ / / /Dm/ /C/ /G/ / /F/  E/ / / /Am/ / / /D / / / /
G/          

Piano  

e|--------------------------------|--------------------------------|
b|-5-------3-------5-------3------|-5-------3-------6-------6------|
g|-----5-------5-------5-------5--|-----5-------5-------5-------5--|
d|--------------------------------|--------------------------------|
a|--------------------------------|--------------------------------|
E|--------------------------------|--------------------------------|

e|--------------------------------|--------------------------------|
b|-5-------3-------5-------3------|-5------------------------------|
g|-----5-------5-------5-------5--|--------------------------------|
d|--------------------------------|--------------------------------|
a|--------------------------------|--------------------------------|
E|--------------------------------|--------------------------------|

e|------------------------------------------------|
b|------------------------------------------------|
g|-2--2--2--2--2--2--2--2--2--2--2--2--2--2--2--2-|
d|-3--3--3--3--3--3--3--3--3--3--3--3--3--3--3--3-|
a|-3--3--3--3--3--3--3--3--3--3--3--3--3--3--3--3-|
E|-1--1--1--1--1--1--1--1--1--1--1--1--1--1--1--1-|

Solo :

e|--------------------------------|--------------------------------|
b|-11fb-~---9fb-~---7fb-~---------|-11fb-~---9fb-~---7fb-~---------|
g|--------------------------------|--------------------------------|
d|--------------------------------|--------------------------------|
a|--------------------------------|--------------------------------|
E|--------------------------------|--------------------------------|

e|--------------------------------|--------------------------------|
b|-7fb--r(7)--5-------------------|--------------------------------|
g|---------------------8----------|-6------5----6-8---6------------|
d|--------------------------------|-----------------8---6-8-8-~----|
a|--------------------------------|--------------------------------|
E|--------------------------------|--------------------------------|

e|--------------------------------|--------------------------------|
b|--------------------------------|--------------------------------|
g|--------------------------------|--------------------------------|
d|---6---8hb-p6h8-8-~-------------|---6----8fb---8fb---8fb----12-~-|
a|-8---8--------------------------|-8---8--------------------------|
E|--------------------------------|--------------------------------|
 
e|-------------15-15-----------------------|
b|---------15--------15-15---15fb--15fb--~-|
g|-----14----------------------------------|
d|-12--------------------------------------|
a|-----------------------------------------|
E|-----------------------------------------|

Strumming chords :
C / / / /Em/ / / /Dm/ / / /G/ / / /C/ / / /Em/ / / /F/ / / /G/ / /
F/  E/ / / / A5/ / / /Dm/ /C/ /G/ / /F/  E/ / / /Am/ / / /D / / / /
G/ / / F G F E/ / / / A5/ / / /Dm/ /C/ /G/ / /F/  E/ / / /Am/ / / /
D / / / /
G/        

Piano :

e|-4-------2-------4-------2-------4-------2-----|
b|-----5-------5-------5-------5-------5-------5-|
g|-----------------------------------------------|
d|-----------------------------------------------|
a|-----------------------------------------------|
E|-----------------------------------------------|


fb = full bend
h  = hammer on
p  = pull off
~  = vibrator