Chord Lagu David's Lyre - These Trees

  
                                              

Intro

      Bm      A       Em/Esus2       G
e|----------------- 7--------------|
B|---------------8-7-8-8-----------|
G|--7777-6666-----9-- 9------4444--|
D|--------------9-------9----------|
A|---------------------------------|
E|--7777-5555----------------3333--|
 
 
Verse: (play like the intro)
Bm
I'm overthrown
A                 Em/Esus2
Longing for the doves which fled these trees
G
Just to return
Bm
This foreign home
A                  Em/Esus2
move to douse the flames that plague this dream
G
I won't watch it burn
 
 
Bridge: (not accurate but something like this)
      Em13     Bm13
e|------14-----9-------------------|
B|----14-----9---------------------|
G|--12-----7-----------------------|
D|---------------------------------|
A|---------------------------------|
E|---------------------------------|
 
Em                        Em13/Bm13
I'll fight before I fall
Em                               Em13/Bm13
seek out the man I used to know
Em                        Em13/Bm13
Stand fast amongst it all
Em         Em13/Bm13     Em
grounded by this stone
 
Bm A Bm A G
            I long to overthrow my fears
Bm A Bm A G                                  G
            I'll stand and know my heart is clear
 
 
Chorus: (strummed)
Bm
I'm overthrown
A                 Em
Longing for the doves which fled these trees
G
Just to return
Bm
This foreign home
A                   Em
move to douse the flames that plague this dream
G
I won't watch it burn