Chord Lagu Ben Harper and Relentless7 - Lay There And Hate Me

  
                                              

Intro

G|-----------------------|
D|-------10-12-----------|
A|------------------10-8-|
E|--10-10------10-10-----|
 
[Verse Bass]
G|-----------------------|
D|-------10-12-----------|
A|------------------10-8-|x3
E|--10-10------10-10-----|
 
G|-----------------------------|
D|-------------10--------------|
A|--------10/12---------10-8---|
E|--10-10---------10-10-----10-|
 
G|-------------------------------------10-12-12-12-12-12-10----|
D|-----------10-------------------10/12---------------------12-|
A|------10/12-------12-10--------------------------------------|
E|--8-8----------8-8-----12---3-3------------------------------|
 
[Chorus Bass]
G|-----------------------------|
D|-----------------------------|
A|-----------------------------|
E|--10-10----8-8----7-7----6-6-|
 
G|-------------------------------------------------------------|
D|-------10-12-12-10---10-12-12-10---10-12-12-10---10-12-12-10-|
A|-------------------------------------------------------------|
E|--10-10-----------8-8-----------7-7-----------6-6------------|
 
G|------------10------------10-----------10-----------10---|
D|-------10/12--12-----10/12--12----10/12--12----10/12--12-|
A|---------------------------------------------------------|
E|--10-10-----------8-8-----------7-7----------6-6---------|
 
{Bridge Bass]
G|------------------------------------------------------|
D|-----8---------------------7------------3----------3--|
A|----8-8----------3--------7-7/8-5-5----5-5--3-3---5-5-|x3
E|--6-------1---3/5-5/3---5-----------------------------|
 
G|---------------------------|
D|-----8---------------------|
A|----8-8-----------3--------|
E|--6--------1---3/5-5/3---5-|
 
[Intro]
Dm
(Hoo, hoo, hoo)
Dm
(Hoo, hoo, hoo)
Dm
(Hoo, hoo, hoo)
 
[Verse 1]
Dm7
Lay there & hate me
Dm7
Lay there and burn
Dm7
One side to the other you toss and turn
Dm7                  Gm7       Dm7
Never trust a woman, never trust a woman
Dm7
Who loves the blues
 
[Verse 2]
Dm7
Mistake number one
Dm7
I made it three times today
Dm7
We'd best talk it over
Dm7
How there's nothing left to say
Dm7                         Gm7
I feel like an underpaid concubine
Dm7
Who's overstayed her welcome
 
[Chorus 1]
Dm
You gave me an eight-page letter
C
Front and back
Bm
Written in your favorite colours
A#
Blood and black
 
     Dm
You choose your words as careful
          C
As you'd choose your own grave stone
Gm            Dm
Lay there & hate me
             A#
Better than being alone
 
        Dm
Had to fight your way in
            C
You got to fight your way out
Bm
Ain't no fool like the fool you love
    A#                     Dm
So let me hear you shout
 
[Verse 2]
Dm7
Shake down, break down
Dm7
Just can't sit still
Dm7
You cut off your hair and sold it
Dm7
For your pretty little pill
Dm7                            Gm7
I've learn some things about myself
                 Dm7
I wish I didn't know
 
[Chorus 2]
Dm
You gave me an eight-page letter
C
Front and back
Bm
Written in your favorite colours
A#
Blood and black
 
     Dm
You choose your words as careful
          Cm
As you'd choose your own grave stone
Gm            Dm
Lay there & hate me
             A#
Better than being alone
 
        Dm
Had to fight your way in
            C
You got to fight your way out
Bm
Ain't no fool like the fool you love
    A#                     Dm
So let me hear you shout
 
[Pre Chorus]
Dm7
Lay there & hate me
Dm7
Lay there and burn
Dm7
One side to the other you toss and turn
Dm7                  Gm7       Dm7
Never trust a woman, never trust a woman
Dm7
Who loves the blues
 
 
[Chorus 3]
Dm
You gave me an eight-page letter
C
Front and back
Bm
Written in your favorite colours
A#
Blood and black
 
     Dm
You choose your words as careful
          C
As you'd choose your own grave stone
Gm            Dm
Lay there & hate me
             A#
Better than being alone
 
        Dm
Had to fight your way in
            C
You got to fight your way out
Bm
Ain't no fool like the fool you love
    A#                     Dm
So let me hear you shout
 
[Outro]
Dm7
Yeah, yeah
Dm7
You just lay there with an eight page letter
Dm7
In your favorite colors