Chord Lagu Ben Gaze - Hey Hope U Are Ok

  
                                              

Intro

 
 
 
E----------------------------------------
B----------------------------------------
G----------------------------------------
D----------------------------------------
A-8-8-8-8-8-12--12-12-12-12--------------
E---------------------------6--6-6--6-6-6
 
 
 
[Intro]
 
e|------------------------------------|
B|------------------------------------|
G|---1-1-1---1-1----6-6-6---6-6-------|
D|--2-2-2--2---2---7-7-7--7---7-------|
A|------------------------------------|
E|------------------------------------|
 
 
---------------------------------------------------
 
Capo on fret 1
 
 
[Verse]
E
Hey,
                      A
i hope youre doing okay
                        E
and everything is just fine
                      A
cuz ive been feeling right
     E
and hey,
                         A
remember when we use to play
                 E
now its gone to waste
                 A
now its lost in time
 
 
[Verse]
E
Hey,
                      A
im glad that i didnt stay
                                   E
but there is nothing that i would change
                         A
and i hope you feel the same
     E
and hey
                     A
if it was any other way
                             E
i was thinking of the other day
                       A
if my heart didnt run away
 
 
[Verse]
E
Hey,
                    A
i hope youre doing okay
                        E
and everything is just fine
                      A
cuz ive been feeling right
E
and hey,
                         A
remember when we use to play
                 E
now its gone to waste
                 A
now its lost in time