Chord Lagu Beatsteaks - Von Nun An Gings Bergab

  
                                              

Intro
 - bass only
 
G|-----------|-----------||
D|---8---8-8-|---8---8-8-|| repeat - at some point, the bass sounds like it has been doubletracked.
A|-6---------|-6---------||
E|-----------|-----------||
 
 
[Verse 1]
 
N.C.
Ich kam im tiefsten Winter zur Welt,
N.C
Hab' dreimal geniest, mich müde gestellt,
N.C
Der Vater war wütend, er wollt' einen Sohn,
N.C
Ich sah mich so um und wusste auch schon:
N.C.
Von nun an geht's bergab.
 
 
[Chorus]
 
Git 1 (dist): two bars of eigths ebm
 
e|-6-6-6-6-6-6-6-6-|-6-6-6-6-6-6-6-6-|
B|-7-7-7-7-7-7-7-7-|-7-7-7-7-7-7-7-7-|
G|-8-8-8-8-8-8-8-8-|-8-8-8-8-8-8-8-8-|
D|-8-8-8-8-8-8-8-8-|-8-8-8-8-8-8-8-8-|
A|-6-6-6-6-6-6-6-6-|-6-6-6-6-6-6-6-6-|
E|-----------------|-----------------|
 
 
Git 2 (dist): plays kicks on 1, 2, 3& and 4& with percussive strokes on 3 and 4
    1 & 2 & 3 & 4 & ...
e|-6---6---x-6-x-6-|-6---6---x-6-x---|
B|-7---7---x-7-x-6-|-7---7---x-7-x---|
G|-8---8---x-8-x-6-|-8---8---x-8-x---|
D|-8---8---x-8-x-6-|-8---8---x-8-x---|
A|-6---6---x-6-x-6-|-6---6---x-6-x---|
E|-----------------|-----------------|
 
 
[Verse 2]
Ebm                      Ab
Anschließend hatte ich nicht viel zu tun,
     Ebm                     Ab
Man ließ mich wachsen und zwischendurch ruhn,
      Ebm                        Ab
Aber nach ein paar Jahren, da sprach man spontan:
    B                              A#7
Du musst jetzt was lernen – der Ärger begann:
 
short fill:
e|-----------------|
B|-----------------|
G|-----------------|
D|-----------------|
A|-8-----8---8-8---|
E|---6-6---------6-|
 
N.C.
Von nun an ging's bergab.
 
 
[Chorus] - (instrumental - key changes from ebm to em)
 
Git 1 (dist)
 
e|-6-6-6-6-6-6-6-6-|-6-6-6-6-6-6-6-6-|-7-7-7-7-7-7-7-7-|-7-7-7-7-7-7-7-7-|
B|-7-7-7-7-7-7-7-7-|-7-7-7-7-7-7-7-7-|-8-8-8-8-8-8-8-8-|-8-8-8-8-8-8-8-8-|
G|-8-8-8-8-8-8-8-8-|-8-8-8-8-8-8-8-8-|-9-9-9-9-9-9-9-9-|-9-9-9-9-9-9-9-9-|
D|-8-8-8-8-8-8-8-8-|-8-8-8-8-8-8-8-8-|-9-9-9-9-9-9-9-9-|-9-9-9-9-9-9-9-9-|
A|-6-6-6-6-6-6-6-6-|-6-6-6-6-6-6-6-6-|-7-7-7-7-7-7-7-7-|-7-7-7-7-7-7-7-7-|
E|-----------------|-----------------|-----------------|-----------------|
 
 
Git 2 (dist)
    1 & 2 & 3 & 4 & ...
e|-6---6---x-6-x-6-|-6---6---x-6-x---|-7---7---x-7-x-7-|-7---7---x-7-x---|
B|-7---7---x-7-x-6-|-7---7---x-7-x---|-8---8---x-8-x-7-|-8---8---x-8-x---|
G|-8---8---x-8-x-6-|-8---8---x-8-x---|-9---9---x-9-x-7-|-9---9---x-9-x---|
D|-8---8---x-8-x-6-|-8---8---x-8-x---|-9---9---x-9-x-7-|-9---9---x-9-x---|
A|-6---6---x-6-x-6-|-6---6---x-6-x---|-7---7---x-7-x-7-|-7---7---x-7-x---|
E|-----------------|-----------------|-----------------|-----------------|
 
 
[Verse 3]
     Em                   A
Mit fünfzehn hatte ich eine Idee,
     Em                    A
Ich wollt' zum Theater, Mama sagte Nee,
     Em                             A
Man hätt' mich enterbt, doch wir hatten kein Geld,
         C                        B7
Und ich folgte dem Ruf auf die Bretter der Welt:
N.C.
Von nun an ging's bergab.
 
 
[Chorus]
 
e|-7-7-7-7-7-7-7-7-|-7-7-7-7-7-7-7-7-|
B|-8-8-8-8-8-8-8-8-|-8-8-8-8-8-8-8-8-|
G|-9-9-9-9-9-9-9-9-|-9-9-9-9-9-9-9-9-|
D|-9-9-9-9-9-9-9-9-|-9-9-9-9-9-9-9-9-|
A|-7-7-7-7-7-7-7-7-|-7-7-7-7-7-7-7-7-|
E|-----------------|-----------------|
 
 
[Verse 4]
 
    1 & 2 & 3 & 4     1...
e|---------------|----|
B|-------------8-|----|
G|---------7-----|-6~-|
D|-----9---------|----|
A|---------------|----|
E|---------------|----|
Und alle fanden, ich hätte Talent,
 
    1 & 2 & 3 & 4     1...
e|---------------|------|
B|-------------8-|-s10~-|
G|---------7-----|------|
D|-----9---------|------|
A|---------------|------|
E|---------------|------|
Und gaben mir Rollen, die 's Programm nicht mal nennt,
 
    1 & 2 & 3 & 4     1...
e|---------12-----|-----|
B|-----12------12-|-10~-|
G|----------------|-----|
D|----------------|-----|
A|----------------|-----|
E|----------------|-----|
Doch der Star wurde krank, das war mir genehm
 
    1 & 2 & 3 & 4      1 & 2 & 3 & 4
e|----------------|--------------|
B|-----10------13-|-12-----------|
G|---------11-----|-----11s8~----|
D|----------------|--------------|
A|----------------|--------------|
E|----------------|--------------|
Und dann hat mich einer vom Film gesehn:
 
short fill:
e|-----------------|
B|-----------------|
G|-----------------|
D|-------9---------|
A|-9---------9-9---|
E|---7-7---------7-|
 
N.C.
Von nun an ging's bergab.
 
 
[Chorus] - (instrumental - key changes from em to fm)
 
Git 1 (dist)
 
e|-7-7-7-7-7-7-7-7-|-7-7-7-7-7-7-7-7-|-8--8--8--8--8--8--8--8--|-8--8--8--8--8--8--8--8--|
B|-8-8-8-8-8-8-8-8-|-8-8-8-8-8-8-8-8-|-9--9--9--9--9--9--9--9--|-9--9--9--9--9--9--9--9--|
G|-9-9-9-9-9-9-9-9-|-9-9-9-9-9-9-9-9-|-10-10-10-10-10-10-10-10-|-10-10-10-10-10-10-10-10-|
D|-9-9-9-9-9-9-9-9-|-9-9-9-9-9-9-9-9-|-10-10-10-10-10-10-10-10-|-10-10-10-10-10-10-10-10-|
A|-7-7-7-7-7-7-7-7-|-7-7-7-7-7-7-7-7-|-8--8--8--8--8--8--8--8--|-8--8--8--8--8--8--8--8--|
E|-----------------|-----------------|-------------------------|-------------------------|
 
 
Git 2 (dist)
    1 & 2 & 3 & 4 & ...
e|-7---7---x-7-x-7-|-7---7---x-7-x---|-8-----8-----x--8--x--8--|-8-----8-----x--8--x-----|
B|-8---8---x-8-x-7-|-8---8---x-8-x---|-9-----9-----x--9--x--8--|-9-----9-----x--9--x-----|
G|-9---9---x-9-x-7-|-9---9---x-9-x---|-10----10----x--10-x--8--|-10----10----x--10-x-----|
D|-9---9---x-9-x-7-|-9---9---x-9-x---|-10----10----x--10-x--8--|-10----10----x--10-x-----|
A|-7---7---x-7-x-7-|-7---7---x-7-x---|-8-----8-----x--8--x--8--|-8-----8-----x--8--x-----|
E|-----------------|-----------------|-------------------------|-------------------------|
 
 
[Verse 5]
 
    1 & 2 & 3 & 4     1...
e|---------------|----|
B|-----6---9-----|----|
G|-------------8-|-7~-|
D|---------------|----|
A|---------------|----|
E|---------------|----|
Mal war ich die Brave, mal war ich der Vamp,
 
    1 & 2    &    3    &    4    &    1...
e|---------------------|------|
B|-----------------11b-|-11r~-|
G|-----10----13--------|------|
D|---------------------|------|
A|---------------------|------|
E|---------------------|------|
Mal war ich in Nerzen, mal ganz ohne Hemd,
 
    1 & 2    &    3    &    4    &    1    &    2 ...
e|-----------13--------|-----------|
B|-----11s13-------13--|-11s9------|
G|---------------------|-------10~-|
D|---------------------|-----------|
A|---------------------|-----------|
E|---------------------|-----------|
Amerika sprach, es sei ohne mich arm,
 
    1 & 2    &    3    &    4    &    1...
e|---------------------|----|
B|-----------9-----12--|----|
G|-----10--------------|-9~-|
D|---------------------|----|
A|---------------------|----|
E|---------------------|----|
Und ich hatte Mitleid und folgt' dem Alarm:
 
short fill:
e|-----------------|
B|-----------------|
G|-----------------|
D|----10-----------|
A|-10------10-10---|
E|---------------8-|
 
N.C.
Von nun an ging's bergab.
 
 
[Chorus]
 
Git 1 (dist)
 
e|-8--8--8--8--8--8--8--8--|-8--8--8--8--8--8--8--8--|
B|-9--9--9--9--9--9--9--9--|-9--9--9--9--9--9--9--9--|
G|-10-10-10-10-10-10-10-10-|-10-10-10-10-10-10-10-10-|
D|-10-10-10-10-10-10-10-10-|-10-10-10-10-10-10-10-10-|
A|-8--8--8--8--8--8--8--8--|-8--8--8--8--8--8--8--8--|
E|-------------------------|-------------------------|
 
 
Git 2 (dist)
    1    &    2    &    3    &    4    & ...
e|-8-----8-----x--8--x--8--|-8-----8-----x--8--x-----|
B|-9-----9-----x--9--x--8--|-9-----9-----x--9--x-----|
G|-10----10----x--10-x--8--|-10----10----x--10-x-----|
D|-10----10----x--10-x--8--|-10----10----x--10-x-----|
A|-8-----8-----x--8--x--8--|-8-----8-----x--8--x-----|
E|-------------------------|-------------------------|
 
 
[Verse 6]
 
N.C.
Jetzt war ich berühmt, war Hilde im Glück,
N.C.
Kam freudig erregt in die Heimat zurück,
N.C.
Bekam einen Preis und wurde verwöhnt,
N.C.
Doch nach einer Pleite, da war ich verpönt:
N.C.
Von nun an ging's bergab.
 
 
[Chorus] - (instrumental - key changes from fm to gbm)
 
Git 1 (dist)
 
e|-8--8--8--8--8--8--8--8--|-8--8--8--8--8--8--8--8--|
B|-9--9--9--9--9--9--9--9--|-9--9--9--9--9--9--9--9--|
G|-10-10-10-10-10-10-10-10-|-10-10-10-10-10-10-10-10-|
D|-10-10-10-10-10-10-10-10-|-10-10-10-10-10-10-10-10-|
A|-8--8--8--8--8--8--8--8--|-8--8--8--8--8--8--8--8--|
E|-------------------------|-------------------------|
 
                             muted sixteenth
                              x    x    x    x    x x x x x x x x x x x x
e|-9--9--9--9--9--9--9--9--|-------------------------------------|
B|-10-10-10-10-10-10-10-10-|-------------------------------------|
G|-11-11-11-11-11-11-11-11-|-------------------------------------|
D|-11-11-11-11-11-11-11-11-|-11-11-11-11-9-9-9-9-7-7-7-7-6-6-6-6-|
A|-9--9--9--9--9--9--9--9--|-11-11-11-11-9-9-9-9-7-7-7-7-6-6-6-6-|
E|-------------------------|-9--9--9--9--7-7-7-7-5-5-5-5-4-4-4-4-|
 
 
Git 2 (dist)
    1    &    2    &    3    &    4    & ...
e|-8-----8-----x--8--x--8--|-8-----8-----x--8--x-----|-9-----9-----x--9--x--8--|-9-----9-----x--9--x-----|
B|-9-----9-----x--9--x--8--|-9-----9-----x--9--x-----|-10----10----x--10-x--8--|-10----10----x--10-x-----|
G|-10----10----x--10-x--8--|-10----10----x--10-x-----|-11----11----x--11-x--8--|-11----11----x--11-x-----|
D|-10----10----x--10-x--8--|-10----10----x--10-x-----|-11----11----x--11-x--8--|-11----11----x--11-x-----|
A|-8-----8-----x--8--x--8--|-8-----8-----x--8--x-----|-9-----9-----x--9--x--8--|-9-----9-----x--9--x-----|
E|-------------------------|-------------------------|-------------------------|-------------------------|
 
 
[Verse 7] - distorted eights on all chords
 
      Gb5                       B
Erst war ich beleidigt, dann war ich verstört,
      Gb                    B
Doch dann hat mich einer singen gehört,
     Gb                          B
Ich hab' ihn gewarnt, doch er sagte, ich muss,
     D                  Db
Und damit begann der neue Verdruss.
 
 
[Outro]
N.C.
Es war nicht meine Schuld
 
                           ...ich bitte um Geduld.
e|--------------------|-9-9-----------------|-9--|
H|------------------9-|---9-----------------|-10-|
G|---------------10---|---9-----------------|-11-|
D|------------11------|---9-----------------|-11-|
A|---------11---------|---9-----------------|-9--|
E|-9-9---9------------|---------------------|----|
 
 
 

 
| x     Dead note
| r     Release
| b     Bend
| ~     Vibrato