Chord Lagu AURORA - Exist For Love

  
                                              

Intro
 
Lead Guitar
e|-9----7----------------9-------------------------|
B|---10--------------------10-9--------------------|
G|-------------------------------------------------|
D|-------------7-7/9-11-----------7-7/9-11-7-------|
A|----------------------11-------------------------|
E|-------------------------------------------------|
 
Rhythm Guitar
    F#m
e|---------------------------------------------------------------|
B|---------------------------------------------------------------|
G|------2--------2--------2--------2-----------------------------|
D|------4--------4--------4--------4-----------------------------|
A|----4---4----4---4----4---4----4---4---------------------------|
E|--2-------2---------2--------2---------------------------------|
 
 
    Amaj7
e|---------------------------------------------------------------|
B|-------2-------2-------2-------2-------------------------------|
G|-------1-------1-------1-------1-------------------------------|
D|-----2---2---2---2---2---2---2---2-----------------------------|
A|---0-------0-------0-------0-----------------------------------|
E|---------------------------------------------------------------|
 
You may keep this pattern for all the chords throughout the song, just shorten it so it fits the vocal line.
The pattern for F#m is the same for Bm and the pattern for Amaj7 is the same for E.
 
 
[Intro]
F#m    Amaj7
 
[Verse 1]
F#m
They say there is a war
                         Amaj7
Between the man and the woman
F#m
I've never felt?like?this before
                      Amaj7
My heart?knew that I couldn't
              Bm
And?then you take me in
     E                                      Amaj7
And everything in me begins to feel like I belong
     F#m
Like everybody needs a home
            Bm
And when I take your hand
          E
Like the world has never held a man
          Amaj7
I know I cannot heal the hurt
            F#m
But I will hold you here forever
     Bm         E
If I can, if I can
 
 
[Chorus]
            Bm
And then I learned the truth
     E                                       Amaj7
How everything good in life seems to lead back to you
     F#m                         Bm
And every single time I run into your arms
   E                   Amaj7
I feel like I exist for love
F#m                Bm
Like I exist for love
E          Amaj7
Only for love
 
 
[Verse 2]
F#m                                             Amaj7      F#m
I can't imagine how it is to be forbidden from loving
 
'Cause when you walked into my life
             Amaj7
I could feel my life begin
            Bm               E
Like I was torn apart the minute I was only born
                Amaj7
And you're the other half
     F#m
The only thing that makes me whole
           Bm
I know it sounds like a lot
         E
But you really need to know
        Amaj7
We are leaning out for love
             F#m                        Bm
And we will lean for love forever, I know
            E
I love you so
 
 
[Chorus]
           Bm
And then I learned the truth
     E                                       Amaj7
How everything good in life seems to lead back to you
     F#m                         Bm
And every single time I run into your arms
   E                       Amaj7
I feel like I exist for love
      F#m
Only for love
              Bm
And when you say my name
            E
Like white horses on the waves
           Amaj7
I think it feels the same
      F#m
As an ocean in my veins
               Bm
And you'll be diving in
      E                  Amaj7
Like nothing is out of place
F#m           Bm         E
And we exist for love
      Amaj7     F#m
Only for love
 
 
       Bm                        E
And I love you, I love you, I love you
       Amaj7                    F#m
And I love you, I love you, I love you