Chord Lagu A Will Away - Home

  
                                              

[Chords]
    G    Csus2 Em7 Dsus4
e|-3----3----3----3---|
B|-3----3----3----3---|
G|-0----0----0----2---|
D|-0----x----2----0---|
A|-x----3----2----x---|
E|-3----x----0----x---|
 
[Verse]
 G
If I could bring you souvenirs
 
I'd still be living with the fear
              Csus2
that I'm not half the man my father was
 
for driving up the coast
             Em7
to get back home to cold Connecticut
 
to see his second son
               Csus2
to bring good tidings of his hard work
 
reminders of his love
 
       G
and I got a little taller
 
and they taught me how to read
              Csus2
and I worked very very hard for all the things that I've achieved
           Em7
when I'm feeling like a failure
 
or feeling short on luck
            Csus2
I've got a place to lay my head
 
a place where I can still be young
 
            Em7        Dsus4
and you said home
              Csus2
home is in my heart
        Em7        Dsus4
you said home
              Csus2
home is in my heart
 
G
well I'm no knight in shining armor
 
just a rebel with a cause
               Csus2
with too much focus on my network
 
too much focus on my flaws
            Em7
and if I'm acting like a child
 
I don't think that's so aburd
                Csus2
'cause I don't wanna lose that sense of fascination when I learn
 
             Em7        Dsus4
that you said home
              Csus2
home is in my heart
         Em7       Dsus4
you said home
              Csus2
home is in my heart
 
 (Play this for the next 3 lines)
e|---------------------------------------|
B|---------------------------------------|
G|------0---------0-------0-------0------|
D|----0---0-----0---0---0---0---0---0----|
A|--3-------3/5-------7-------9----------|
E|---------------------------------------| x3
 
you said home
home is in my heart
you said home
 
 (End with this)
e|---------------------------------------|
B|---------------------------------------|
G|------0---------0-------0--------------|
D|----0---0-----0---0---0---0--0---------|
A|--3-------3/5-------7--------9---------|
E|---------------------------------------|
home is in my heart
 
 

 
| x    Dead note
| /    Slide up