Chord Lagu A Silver Mt. Zion - What We Loved Was Not Enough

  
                                              

Intro guitar riff: (0:44)
       Bm          D
e|---------------------|
B|---------------------|
G|---------------------|
D|---------------------|
A|-----2---------------|
D|-2-4--------2-0------|
    pm. .        . .
 
 
Chorus guitar riff: (1:58)
       G        D           Bm        D
e|----------------------------------|
B|----------------------------------|
G|----------------------------------|
D|----------------------------------|
A|---------------------2------------|
D|-2-4-5-----0-----2-4-------2-0----|
    pm. .       .       . . .       . .
 
If I can figure out the rest of the guitar parts I'll be sure to add them